Поиск аккордов и песен...

Красивые мелодии на Одной Струне (Песни на гитаре)

Жуки - Батарейка на одной струне
8-8-8-10-8-7-5-5-5-5-4-0-1-0
8-8-8-10-8-7-5-5-5-5-4-0-1-0
8-8-8-10-8-7-5-5-5-5-4-0-1-0
8-8-8-10-8-7-5-5-5-7-8-7-5
припев :
12-10-8-7-5-5-5-7-8-7-5

Linkin Park - Numb на одной струне
0-3-0-5---8--7
0-3-0-8---7--3
0-3-0-5---8--7
0-3-0-8---7--3

Survivor - Eye of the tiger на одной струне
4---x--x--4--2

4---x--x--4--2

4---x--x--4--2--0------0--0

Кузнечик на одной струне
5-0-5-0-5-44
4-0-4-0-4-55
5-0-5-0-5-44
4-0-4-0-4-55
5-7--777-7-8-888-8-8-7-5-4-5
5-7-777-7-8-888-8-8-7-5-4-5

Бумер на одной струне
0-3--------3-0
5-3-5-3-5-3-5-3-5-7
0-3--------3-0
5-3-5-3-5-3-5-3-5-7

Звездные Войны на одной струне
4--4--4-4--0--7--4--0--7--4
11--11--11--12--7--4--0--7--4

Linkin Park - In the end на одной струне
0--7--7--3--2--2--2--2-3
0--7--7--3--2--2--2--2-3
0--7--7--3--2--2--2--2-3
0--7--7--3--2--2--2--2-3

Blur - Song 2 на одной струне
X-X-X-X-X-X-X-X
X-X-X-X-X-X-X-X-X
3-3-X-1-1-1-X
6-6-8-10-10-10-10-10
3-3-X-1-1-1-X
6-6-8-10-10-10-10-10
3-3-X-1-1-1-X
6-6-8-10-10-10-10-10
3-3-X-1-1-1-X
6-6-8-10-10-10-10-10

Deep Purple - Smoke on the water на одной струне
0-3-5
0-3-6-5
0-3-5
3-0

Sting - Shape of my heart на одной струне
10-2-10-9-2-9-7-0-7-7-6

The White Stripes - Seven Nation Army на одной струне
5--5-8-5-3-1--0
5--5-8-5-3-1--0
5--5-8-5-3-1--0
5--5-8-5-3-1-3-1-0

Happy Birthday (С днем Рождения) на одной струне
0-0-2-0--5-4
0-0-2-0--7-5
0-0-12-9--5-4-2
10-10-9-5-7-5

Ed Sheeran - Shape of you на одной струне
4--7--4-4--7--4-4--7--4-6-4-2
4--7--4-4--7--4-4--7--4-6-4-2

Звери - Районы-кварталы на одной струне
0-8-5---0-8-5
0-7-4---0-8-5
8---8-7-10---10-8-7
8--7--5

Nirvana - Come as you are на одной струне
0-0-1-2-5-2-5-2-2-1-0-7-0-0-7
0-1-2-5-2-5-2-2-1-0-7-0-0-7