Поиск Аккордов...

The Last Of Us Part Il - Through The Valley - аккорды, текст песни, табы, разбор


[Intro]
                     x4
e|---------------------|
B|:-------4-----------:|
G|------------4---(4)--|
D|-----6--------6------|
A|:-------------------:|
E|--4------------------|


[Verse]

    "I walk through the valley of the shadow of death..."

                     x2                    x2                    x2                    x2 
e|---------------------|---------------------|---------------------|---------------------|
B|:-------4-----------:|:-------5-----------:|:-------4-----------:|:-------4-----------:|
G|------------4---(4)--|------------6---(6)--|------------4---(4)--|---------------------|
D|-----6--------6------|-----6--------6------|-----6--------6------|-----5------5---(5)--|
A|:-------------------:|:-4-----------------:|:-------------------:|:-6-----------6-----:|
E|--4------------------|---------------------|--4------------------|---------------------|

                     x2                    x2                                          
e|---------------------|---------------------|---------------------|---------------------|
B|:-------4-----------:|:-------5-----------:|--------4------------|--------4------------|
G|------------4---(4)--|------------6---(6)--|------------4---(4)--|---------------------|
D|-----6--------6------|-----6--------6------|-----6--------6------|-----5------5---(5)--|
A|:-------------------:|:-4-----------------:|---------------------|--6-----------6------|
E|--4------------------|---------------------|--4------------------|---------------------|

e|---------------------|--4------------------|
B|--------4------------|--4------------------|
G|------------4---(4)--|--4------------------|
D|-----6--------6------|--6------------------|
A|---------------------|--6------------------|
E|--4------------------|--4------------------|


[Verse]
(exact strumming not shown)

    "Surely goodness and mercy will follow me all the days of my life..."

e|--4--4--4--4--|--4--4--4--4--|--4--4--4--4--|--------------|
B|:-4--4--4--4--|--5--5--5--5--|--4--4--4--4--|--8--8--8--8-:|
G|--4--4--4--4--|--6--6--6--6--|--4--4--4--4--|--6--6--6--6--|
D|--6--6--6--6--|--6--6--6--6--|--6--6--6--6--|--8--8--8--8--|
A|:-6--6--6--6--|--4--4--4--4--|--6--6--6--6--|--6--6--6--6-:|
E|--4--4--4--4--|--------------|--4--4--4--4--|--------------|

e|--4--4--4--4--|--4--4--4--4--|--4--4--------|--4--4--4-----|
B|--4--4--4--4--|--5--5--5--5--|--4--4--8--8--|--4--4--4-----|
G|--4--4--4--4--|--6--6--6--6--|--4--4--6--6--|--4--4--4-----|
D|--6--6--6--6--|--6--6--6--6--|--6--6--8--8--|--6--6--6-----|
A|--6--6--6--6--|--4--4--4--4--|--6--6--6--6--|--6--6--6-----|
E|--4--4--4--4--|--------------|--4--4--------|--4--4--4-----|


[Outro]

    "No I can't walk..."

e|--4----------|------------|------------|-------------|
B|--4----------|------------|-8----------|-------------|
G|--4----------|------------|-6----------|-------------|
D|--6----------|------------|-8----------|-------------|
A|--6----------|------------|-6----------|-------------|
E|--4----------|------------|------------|-------------|
 
  
 G#m                           C#m 
 I walk through the valley of the shadow of death.
         G#m                       D#    
 And I'll fear no evil because I'm blind to it all.
         G#m                          C#m 
 And my mind and my gun they comfort me,
            G#m                D#                G#m
 because I know I'll kill my enemies when they come.

        G#m                                       C#m 
 Surely goodness and mercy will follow me all the days of my life,
            G#m                        D#    
 and I will dwell on this earth forevermore.
            G#m                                   C#m 
 Said I'll walk beside the still waters and they restore my soul,
              G#m                    D#                 G#m
 but I can't walk on the path of the right because I'm wrong.


        G#m                             C#m 
 Well I came upon a man at the top of a hill,
 G#m                                  C#m             
 call himself the savior of the human race.
           G#m                            C#m             
 Said he'd come to save the world from destruction and pain,
            G#m                  D#           G#m
 but I said how can you save the world from itself.


G#m                  C#m         
G#m                  D#             

G#m                  C#m          
G#m                  D#                    G#m


          G#m                            C#m 
 'Cause I walk through the valley of the shadow of death.
   G#m                      D#    
 I fear no evil because I'm blind.
   G#m                                      C#m        
 I walk beside the still waters and they restore my soul,
       G#m         D#             G#m
 but I know when I die my soul is damned.